Cross Canadian Ragweed

Cross Canadian Ragweed - Too Far Gone intro guitar tab

Too Far Gone

intro

play this about 3 times

e---------------------------------------]

B---------------------------------------]

G---------------------------------------]

D-----6/7-6-4-2-0-0-2-0-----------------]

A-----------------------4/5-4-2-2-4-2~~-]

E---------------------------------------]

then

e---------------------------------------]

B---------------------------------------]

G---------------------------------------]

D-----6/7-6-4-2-0-0-2-0-------------2---]

A-----------------------4/5-4-2-2-4-----]

E---------------------------------------]

Just listen to the song and you'll get the timing

Get this song at:  amazon.com sheetmusicplus.com

Share your thoughts

0 Comments found