Cross Canadian Ragweed

Cross Canadian Ragweed - The President Song solo guitar tab

Cross Canadian Ragweed

The President Song

This is from the Live @ Billy Bob's Cd

e--------------------------------------------------------

B--------------------------------------------------------

G-----------7---9bb---7h9p--------7h9p-------------------

D-------7-9---9-------------7h9p---------9p7-------------

A--7/9----------------------------------------9p7p5------

E----------------------------------------------------7---

e----------------------

B-------------7-8-10---

G-----------7----------

D-------7h9------------

A-5-7/9----------------

E----------------------

Get this song at:  amazon.com sheetmusicplus.com

Share your thoughts

0 Comments found