Cross Canadian Ragweed

Cross Canadian Ragweed - Suicide Blues(correct)w/ guitar tab

intro

-------------------------------------------

-------------------------------------------

-----------------2----------------------2--

-----------------2----------------------2--

------0--3---4--------0--4--3--0--3--4-----

-------------------------------------------

verses

go downtown.....................

-------------------------------------------

-------------------------------------------

-------------------------------------------

--2--2--4p2----2--2--4p2-------------------

--o--0--0-0----0--0--0-0-------------------

-------------------------------------------

i wanna go downtown................

-------------------------------------------

-------------------------------------------

--2--2--4p2----2--2--4p2-------------------

--0--0--0-0----0--0--0-0-------------------

-------------------------------------------

-------------------------------------------

since my baby she gone...................

-------------------------------------------

-------------------------------------------

--------------------------2--2--4p2--------

--------------------------0--0--0-0--------

--2--2--4p2----2--2--4p2-------------------

--0--0--0-0----0--0--0-0-------------------

intro to chorus and chorus

play this part 4 times

-------------------------------------------

-------------------------------------------

--------------2--2--4p2--------------------

--------------0--0--0----------------------

--0--2--3--4-------------------------------

-------------------------------------------

-------------------------------------------

------7b--5------------7b--5---------------

-------------7----------------7------------

--0-----------------0----------------------

-------------------------------------------

4 times and then.... the reason that i'll be gone

-------------------------------------------

-------------------------------------------

--2--2--4p2----------4-4-4-4-4-4-4-4-------

--0--0--0-0----------4-4-4-4-4-4-4-4-------

---------------------2-2-2-2-2-2-2-2-------

-------------------------------------------

-------------------------------------------

-------------------------------------------

-------------------------------------------

-----------2--------0----------------------

-----------------------4--3--2-------------

--0--3--4-----0--3-------------------------

then start verses again

first solo

--------------------------------------------

------5--7--7b------5-7b--------------------

--5/7-----------5/7------5-7----------------

-----------------------------7--------------

--------------------------------------------

--------------------------------------------

--------------------------------------------

------5-7-7b------5-7b--------7bp5---5------

--5/7---------5/7------5-7----7bp5---5------

---------------------------7-------7---7----

--------------------------------------------

--------------------------------------------

-------------------9/12-12-10-9-------------

-7bp5---------------------------12----------

-7bp5---5-----------------------------------

------7-------------------------------------

--------------------------------------------

--------------------------------------------

-9/12-12-12-12-12-12-10---------------------

------------------------13-10---------------

--------------------------------------------

--------------------------------------------

--------------------------------------------

--------------------------------------------

you should be able to figure the rest out from here. the second solo is

pretty much the same just a little different. it's just an A scale basically.

Get this song at:  amazon.com sheetmusicplus.com

Share your thoughts

0 Comments found