Cross Canadian Ragweed

Cross Canadian Ragweed - Ss #10 intro guitar tab

Cross Canadian Ragweed

SS #10

e-------------------------

B-------------------------

G------------8------------

D-------9-11---11---------

A--9/11-------------------

E-------------------------

e-------------------------

B-------------------------

G------------8------------

D-------9-11---11br9------

A--9/11-------------------

E-------------------------

e-------------------------

B-------------------------

G-------8-----------------

D--9/11---11/13--13br-11--

A-------------------------

E-------------------------

e-------------------------

B-------------------------

G-------------------------

D--11-13b-13br-11--8-9----

A-------------------------

E-------------------------

Like I say in all my tabs, probably not 100%, but it's close enough for me.

Get this song at:  amazon.com sheetmusicplus.com

Share your thoughts

0 Comments found