Cross Canadian Ragweed

Cross Canadian Ragweed - Pay solo guitar tab

Cross Canadian Ragweed Pay

Acoustic solo

E-------------------------------|---------------------------------------------------|

B-------------------------------|---------------b--r------------7-8---7h8p7-10-8-7--|

G-------------------------------|----------7-9-9(11)9-9-7-----7---------------------|

D-----0---/4-2---4-5-5/7-5-4-0--|------7-9----------------7-9-----------------------|

A-0-2---------------------------|--7-9----------------------------------------------|

E----[G]----[A]-[D]-------------|-[A]-----------------------------[D]---------------|

E-9h10-9------------------------------------------------|---------------------------|

B-------12-10--------10-10-8-7-8-7----b--r--------------|-----------7-8-7------bh---|

G------------12-11-12--------------9-9(11)9-7-----------|--------7-9------9-7-9(10)-|

D---------------------------------------------9-7-------|-----7-9-------------------|

A-------------------------------------------------9\7-5-|--7/9----------------------|

E-[G]------------------[A]------------[D]---------[G]---|-[D]-------[A]--------[Bm]-|

E-----------------------------10--|

B--pbr------------------10-12-----|

G-(11)9-7---7-9-7-7---------------|

D—--------9-----------7-----------|

A---------------------------------|

E-[A]-----------[D]---------------|

Get this song at:  amazon.com sheetmusicplus.com

Share your thoughts

0 Comments found