Cross Canadian Ragweed

Cross Canadian Ragweed - Only Daddy That'll Walk The Line intro guitar tab

Basic Intro

e-------------------------------------

b-------------------------------------

g-------------------------------------

d-------------------------0-----------

a--5-5p0---3-3p0---2-2p0-----2--------

e-------------------------------------

I play the follow up like this

e-------------------------------------

b-------------------------------------

g--------------2----------------------

d--777/555/333-0-3--------------------

a--555/333/222---2--------------------

e-------------------------------------

My First Tab so please forgive me

if its wrong.

Get this song at:  amazon.com sheetmusicplus.com

Share your thoughts

0 Comments found