Cross Canadian Ragweed

Cross Canadian Ragweed - Lonely Girl solo guitar tab

CCR rox!

solo 1:

-----------------------------------------------------------------

-----------------------------------------------------------------

-----------------------------------------------------------------

-------------------------------------6-7-6-----------------------

--7h9-9----9b10--7-----7h9-------7h9--------9-7--9b11-9------7---

-------------------7h9------7--9------------------------7h9------

-----------------------------------------------------------------

-----------------------------------------------------------------

---------------------------------------------9-------------------

-6-7/9/7-6-----------------------------------9-------------------

-----------9----7-----7---9b10-----7--9------7-------------------

-------------------9------------9---------7----------------------

solo 2:

-----------------------------------------------------------------

-----------------------------------------------------------------

-----------------------------------------------------------------

-------------------------------------------------6-7-6-----------

-7h9-----------7--9/10------7h9-9------------7h9--------9-7--9/10-

------------------------7h9--------7--9--7h9---------------------

-----------------------------------------------------------------

-----------------------------------12b14-14-14-14-12--9h10-10-9h10-

--------------------------9------9-------------------------------

------------6h7--7--9/11----9h11---------------------------------

-----7h9-9-------------------------------------------------------

-7h9-------------------------------------------------------------

---------------------------------12--12-12-12-12-11-11-11-11-9---

-----------------------------------------------------------------

-11-9--11b12b11--11p9----9---------------------------------------

----------------------11---9-11----------------------------------

----------------------------------------------------------------

-----------------------------------------------------------------

-----------------------------------------------------------------

-12-10-9--9h10---------------------------------------------------

----------------11--11b12-11-9----9------------------------------

-------------------------------11---9h11-9-----------------------

-------------------------------------------11/9-7-9-7=-7-9/11----

-----------------------------------------------------------------

-----------------------------------------------------------------

-----------------------------------------------------9h10h12p10p9-

------9-11-9----------------9-11-9--------------9-11-------------

-9-11------------------9-11----------------9-11------------------

---------------7-9/11---------------7-9/11-----------------------

-----------------------------------------------------------------

-----------------------------------------------------------------

-----------------------------------------------------------------

-11/12-11-9-----11b12-9------------------------------------------

------------11---------------------------------------------------

-----------------------------------------------------------------

-----------------------------------------------------------------

HAVE FUN WITH IT!

BOBBY W. MAKE A COMMMENT IF IM WRONG.

Get this song at:  amazon.com sheetmusicplus.com

Share your thoughts

0 Comments found