Cross Canadian Ragweed

Cross Canadian Ragweed - Lonely Girl guitar tab

Standard tuning

And i dont have the exact strum pattern but ill try to get it kinda close.

Intro:

e----------------------------------------------------------------------------|

B--9--X--X--9--X--X--9--7--7------5--X--5------------------------------------|

G--9--X--X--9--X--X--9--8--8h9p8--6--X--6------------------------------------|

D--9--X--X--9--X--X--9--9--9------6--X--6------------------------------------|

A--7--X--X--7--X--X--7--9--9------4--X--4------------------------------------|

E-----------------------7--7-----------------5-7-9-10-11-9-10----------------|

Repeat thru to chorus and at the end of the chorus it goes to

e----------------------------------------------------------------------------|

B----------------------------------------------------------------------------|

G----------------------9-----------------------------------------------------|

D----4--4--7--7--9--9--9-----------------------------------------------------|

A----4--4--7--7--9--9--7-----------------------------------------------------|

E----2--2--5--5--7--7--------------------------------------------------------|

First solo:

e----------------------------------------------------------------------------|

B----------------------------------------------------------------------------|

G----------------------------------------------------------------------------|

D---------------------------------------6-7-6-------------------6-7/97-6----|

A--7h9-9----9b10--7-----7h9--------7h9-------9-7--9b11-9-------7----------9--|

E-------------------7h9-------7--9-------------------------7h9---------------|

e----------------------------------------------------------------------------|

G--------------------------------9-------------------------------------------|

B--------------------------------9-------------------------------------------|

D--------------------------------9-------------------------------------------|

A----7-----7--9b10-----7--9------7-------------------------------------------|

E-------9-----------9--------7-----------------------------------------------|

Second Solo:

e----------------------------------------------------------------------------|

G----------------------------------------------------------------------------|

B----------------------------------------------------------------------------|

D---------------------------------------------------6-7-6--------------------|

A--7h9------------7--9/10------7h9-9------------7h9--------9-7--9/10---------|

E--------------------------7h9--------7--9--7h9------------------------------|

e----------------------------------------------------------------------------|

G-----------------------------------12b14-14-14-14-12--9h10-10-9h10----------|

B-------------------------9-------9---------------------------------11-9-----|

D------------6h7--7--9/11----9h11--------------------------------------------|

A-----7h9-9------------------------------------------------------------------|

E--7h9-----------------------------------------------------------------------|

e-----------------------------12---12-12-12-12-11-11-11-11-9-----------------|

B------------------------------------------------------------12-10-9--9h10---|

G--11b12b11-11p9----9--------------------------------------------------------|

D----------------11-----9--11------------------------------------------------|

A----------------------------------------------------------------------------|

E----------------------------------------------------------------------------|

e----------------------------------------------------------------------------|

B----------------------------------------------------------------------------|

G--11--11b12-11-9----9-----------------------------------9-11-9--------------|

D-----------------11---9h11-9-----------------------9-11---------------------|

A-----------------------------119-7-9-7-----7-9/11--------------------------|

E----------------------------------------------------------------------------|

e-----------------------------------------------------------------------------|

B-----------------------------------------9h10h12p10p9------------------------|

G--------------9-11-9----------------9-11---------------11/12-11-9----11b12-9-|

D---------9-11------------------9-11-------------------------------11---------|

A--7-9/11----------------7-9/11-----------------------------------------------|

E-----------------------------------------------------------------------------|

This is my first tab so go easy. im a newbie.

Feel free to make any corrections

Get this song at:  amazon.com sheetmusicplus.com

Share your thoughts

0 Comments found