Cross Canadian Ragweed

Cross Canadian Ragweed - Jenny solo guitar tab

Jenny by Cross Canadian Ragweed.

standard tuning

s = slide b r

p = pulloff 7(8)7 = bend 7th fret to 8ths pitch, release back to 7th.

h = hammer on 11b13 = bend 11th fret to 13ths pitch.

~ = vibrato ? = pretty sure notes below aren't right, but its close enough.

Solo

E B A E B A

|-----------|----b-r--------|-----------------|-12-9----9----|------------------------|---------|

|-----------|--7(8)7--5h7p5-|-----------------|------12---12-|9----10p9---------------|---------|

|-------6-9-|---------------|-6-4---4---------|--------------|--11------11-9----------|---------|

|-2s6-9-----|---------------|-----6----6s4--2-|--------------|-----------------9-11-9-|9p11-9---|

|-----------|---------------|-----------------|--------------|------------------------|---------|

|-----------|---------------|-----------------|--------------|------------------------|---------|

E B ? A E

|---------|---------------|------------------|------------------|-12-9-----------|

|-10-9-10b|(12)~--10-9----|10p9--------------|----------12------|------12-9-10-9-|

|---------|------------11-|-----11-9-9h11-9--|11-b-(13)----11-9-|----------------|

|---------|---------------|------------------|------------------|----------------|

|---------|---------------|------------------|------------------|----------------|

|---------|---------------|------------------|------------------|----------------|

B E

|-------b-r---------------|--------------------|

|----9(10)9---------------|--------------------|

|-11----------11-9-9h11-9-|--------------------|

|-------------------------|------9h11-9--------|

|-------------------------|-------------11s9-7-|

|-------------------------|--------------------|

Get this song at:  amazon.com sheetmusicplus.com

Share your thoughts

0 Comments found