Cross Canadian Ragweed

Cross Canadian Ragweed - Jenny guitar tab

Jenny

Cross Canadian Ragweed

CD: Carney

Transcribed by Cade Smith

Intro (let notes ring)

e |----0--------------------------------|

B |----0--------------------------------|

G |------1h2--2-2--1h2p1----------------|

D |----------------------2--------2-----|

A |------------------------2--0h2-------|

E |-0-------------------------------0---|

e |----0--------------------------------|

B |----0--------------------------------|

G |------1h2--2-2--1h2p1----------------|

D |----------------------2--------2-----|

A |------------------------2--0h2-------|

E |--------------------------------0----|

E B A

Jenny come back from California

E B A

She said her mother's doing fine

E B A

Jenny come back from California

E B E

With a sparkle in her eye

(verse)

E B A

Early last June, she bought a round trip ticket

E B A

To San Francisco by the bay.

E B A

Trouble at home, she said she couldn't take it.

E B E

She needed time to get away.

(repeat chords of chorus)

Jenny come back from California.

With a brand new pair of shoes

Jenny come back from California

She come back without her blues

Solo:

(repeat chords of verse)

Well there's something about that ocean

that's got a romantic feeling

When you're standing by the shore

A little more time, a lot more healing

Maybe she'll love me once more

(repeat chords of chorus)

Jenny come back from California.

A little lighter when she steps.

Jenny come back from California

Full of life with no regrets

(bridge)

A B E

Never knew what she saw in San Francisco

A B E

Maybe moonlight by the sea

A B C#m

It can fall off in the water

A B

Just as long as she comes back to me.

(repeat chords of chorus)

Jenny come back from California

With a brand new diamond ring

Jenny come back from California

She gathered up the rest of her things.

Jenny went back to California.

www.crosscanadianragweed.com

thanks to Cade Smith (CadeSmith@centurytel.net) for the song.

Get this song at:  amazon.com sheetmusicplus.com

Share your thoughts

0 Comments found