Cross Canadian Ragweed

Cross Canadian Ragweed - Hey, Hey, My, My intro guitar tab

Hey, Hey, My, My - intro

by Cross Canadian Ragweed

The other tab is correct but....is played in

the key of Am and is supposed to be played in G.

~^~^~^~^~^~^~^~^~^~^~^~^~^~^~^~^~^~^~^~^~^~^~^~^~^~^~^~^~^~^~^~^~^~^

e----------------------------3------------e

B----------------------------3------------B

G----------------------------3------------G

*1* D----------------------------5------------D

A-------------3-3--5---------5------------A

E---3---3-5-6--------6-5-3---3------------E

e-------------------------3--------------e

B-------------------------3--------------B

G-------------------------5--------------G

*2* D-------------------------5--------------D

A-------------3--3-5--3---3--------------A

E---3---3-5-6----------------------------E

*1* two times, *2* one time, *1* one time

~^~^~^~^~^~^~^~^~^~^~^~^~^~^~^~^~^~^~^~^~^~^~^~^~^~^~^~^~^~^~^~^~^~^

enjoy :)

mammycc_05@yahoo.com

Get this song at:  amazon.com sheetmusicplus.com

Share your thoughts

0 Comments found