Cross Canadian Ragweed

Cross Canadian Ragweed - Flowers intro guitar tab

E-------------3-------------------3---------------------3---

B---------1-----------------------1---------------1---------

G-------0-------0-0-0-0-0h2-2-0-----0-0-0-0-----0-----0-----

D---0h2----------2-2-2--3---3-0------2-2-2--0h2-------2--2p0

A-3---------3-------------------3-------------------3-------

E-----------------------------------------------------------

E-------------3-----

B-------------1-----

G---0-----0---0-----

D---0-----0---------

A-----0h2---3-------

E-3-----------------

Thats about as close as i could hear it. The lead after the 1st and 2nd chorus are a little different but if you can't find the differences this still works for them too.

Get this song at:  amazon.com sheetmusicplus.com

Share your thoughts

0 Comments found