Cross Canadian Ragweed

Cross Canadian Ragweed - Cry Lonely intro guitar tab

this is also the lead, interlude after the chorus, and the end. on the interlude just do it once instead of twice.

Intro

C Em

e|-----------------------------|

B|-----------------------------|

G|-----------------------------|

D|--------0-0------------------|

A|--0-2-3-----3-3-2-0---0-2-2--|

E|--------------------3--------|

C Em

e|-------------------------|

B|-------------------------|

G|-------------------------|

D|--------0-0--------------|

A|--0-2-3-----3-3-2-0------|

E|--------------------3-0--|

C Em

e|-----------------------------|

B|-----------------------------|

G|-----------------------------|

D|--------0-0------------------|

A|--0-2-3-----3-3-2-0---0-2-2--|

E|--------------------3--------|

C Em

e|-------------------------|

B|-------------------------|

G|-------------------------|

D|--------0-0--------------|

A|--0-2-3-----3-3-2-0------|

E|--------------------3-0--|

C

e|---------|

B|---------|

G|---------|

D|---------|

A|--0-2-3--|

E|---------|

Get this song at:  amazon.com sheetmusicplus.com

Share your thoughts

0 Comments found