Cross Canadian Ragweed

Cross Canadian Ragweed - Constantly solo guitar tab

"Constantly"

Cross Canadian Ragweed

h = hammer on

p = pull off

/ = bend

m = palm mute

solo:

A

--------------------------------00----00--

--------------------------------22-m2-22--

--------------00-----0----------22-m2-22--

-------2---4-m22-4-2-0-------2--22-m2-22--

--2-h4---4--------------2-h4----00-m0-00--

------------------------------------------

--------------------------------------------------

--------------------------------------------------

--------------00-----0------2------/5-4-4--/5-0-2-

-------2---4-m22-4-2-0-2-h4---2-h4----------------

--2-h4---4----------------------------------------

--------------------------------------------------

have fun,

Parker

Get this song at:  amazon.com sheetmusicplus.com

Share your thoughts

0 Comments found