Cross Canadian Ragweed

Cross Canadian Ragweed - Carry You Home lead guitar tab

Carry You Home - Lead

by Cross Canadian Ragweed

- this is as good as i can get it -

*intro & outro*

e-------------7-5--------------------------------------------------------------e

B---------7-------7-5---5------------------------------------------------------B

G-------7---9---------7---7----------------------------------------------------G

D---7-9------------------------------------------------------------------------D

A------------------------------------------------------------------------------A

E------------------------------------------------------------------------------E

*lead solo*

e-----------------------10-----------------------------------------------------e

B---------------7----12----12-----------------15-13---12--10--7-----7-10-7-----B

G-------7-7---7---------------12-10b----10----------------------7-7--------7---G

D---7-9-----9-----9------------------12----12----------------------------------D

A------------------------------------------------------------------------------A

E------------------------------------------------------------------------------E

*lick 2*

(this is played over the Bm, G in the first of the very last three

"carry you home")

e------------------------------------------------------------------------------e

B------------------------------------------------------------------------------B

G------------0-----------0-----------------------------------------------------G

D----0-2-4-2-----0-2-4-2-------------------------------------------------------D

A--2-----------2---------------------------------------------------------------A

E------------------------------------------------------------------------------E

enjoy :)

mammycc_05@yahoo.com

Get this song at:  amazon.com sheetmusicplus.com

Share your thoughts

0 Comments found