Cross Canadian Ragweed

Cross Canadian Ragweed - Carney Man solo guitar tab

Cross Canadian Ragweed

Carney Man Solo

It can be played one of two ways they sound pretty much

same, just one's deeper.

When sliding, slide to 7 and right back to 5 (don't hit

the string when on 7th fret, just 5th)

e------------------------------------------------

b------------------------------------------------

G------------------------------------------------

D------------------------------------------------

A--5/7\5--3-5-5/7-3---5/7\5--3-5-5/7-3--3-5/7-8-7

E------------------------------------------------

^ ^

these are the only times you hit the string on the 7th fret (^)

e-------------------------------------

b-------------------------------------

G-------------------------------------

D-------------------------------------

A--5--3-5/7-3------------3-3-3-3-0----

E----------------------------------3-3

The second way, same style just on even numbered frets.

e------------------------------------------------

b------------------------------------------------

G------------------------------------------------

D------------------------------------------------

A--2/4\2--0-2-2/4-0---2/4\2--0-2-2/4-0--0-2/4-5-4

E------------------------------------------------

^ ^

these are the only times you hit the string on the 4th fret (^)

e--------------------------------------

b--------------------------------------

G--------------------------------------

D--------------------------------------

A2--0-2/4-0---------------0-0-0-0------

E---------------------------------2-0-0

Get this song at:  amazon.com sheetmusicplus.com

Share your thoughts

0 Comments found