Cross Canadian Ragweed

Cross Canadian Ragweed - Carney Man (2) solo guitar tab

band: cross canadian ragweed

song: carney man (solo)

i think i got this all firgured out. i started with the other guy's

way and worked from there. this is the way it sounds on their

Live at Billy Bob's album. feel free to comment or help out.

brandon

h - hammer on

p - pull off

/ - slide up

\ - slide down

*( repeated notes, for ex: 3-3-3, are picked fast)

E---------------------------------------------------------------------I

B---------------------------------------------------------------------I

G---------------------------------------------------------------------I

D-0h2p0---0-2----0h2p0---0-2----0h2-2-2-2/3\2--0---0-2----0-2---------I

A-------3-----3--------3-----3-------------------3-----3------3-------I

E---------------------------------------------------------------------I

E---------------------------------------------------------------------I

B---------------------------------------------------------------------I

G---------------------------------------------------------------------I

D---------------------------------------------------------------------I

A--3-3-3-0------3-3-3-0---------0h2-2-2-2/3\2-0---0------0h2-2-2------I

E----------3-3----------3-3-3\------------------3---1-0---------------I

E------------------------I

B------------------------I

G------------------------I

D------------------------I

A--2/3\2-0---0--------3--I

E----------3---1--1-0----I

Get this song at:  amazon.com sheetmusicplus.com

Share your thoughts

0 Comments found