Cross Canadian Ragweed

Cross Canadian Ragweed - Carney Intermission solo guitar tab

By: Cross Canadian Ragweed

tabbed by: Randy

from the soul gravy dvd

this is the solo that cody canada does in

intermission when grady cross

anounces codys name during carney man

please comment and rate this tab

/ = slide up

\ = slide down

~~~~ = bend the string up and down for a wah tone

bh = bend and hold

r = release the bend

h = hammer on

p = pull off

* = palm mute

e----------------------------------------------

B----------------------------8-----------------

G-----5----------------7b9r7---7~~~~-----------

D--/7--7-5-----------7--------------5h7--5-----

A---------7-0--5-7/9-----------------------3~--

E----------------------------------------------

e-------3-3-3-3-3-3-3-3----------------------------

B--3bh4-3-3-3-3-3-3-3-3-r3--1-3p1--------1-3b4r3-1-

G---------------------------------3p0-0h3-3--------

D--------------------------------------------------

A--------------------------------------------------

E--------------------------------------------------

e-----3-5-5b6r5-3-----------------------------------------

B--3/5----------------------------------------------------

G-------------------------5h7-b7*-7--5~-----------------5\

D----------------------5h7---------7----5-5h7p5-----------

A-------------------/7-------------------------7-5h7-0*---

E---------------------------------------------------------

e-------------------

B-------------------

G----------------5--

D--5h7-5---------5--

A--------7\5--3--3--

E-------------------

Get this song at:  amazon.com sheetmusicplus.com

Share your thoughts

0 Comments found