Cross Canadian Ragweed

Cross Canadian Ragweed - Broken solo guitar tab

Cross Canadian Ragweed

Broken

I know there's mistakes in this so don't eat me alive.

At least I took the time to give everyone an idea on

how to play this song (cuz it took a while). I didn't

finish the solo (ran out of time), but I'll try and

finish it soon.

e--------------------------------------------------------------------------

B--------------------------------------------------------------------------

G--------------------------------------------------------------------------

D-----------------------12----12-17---17br14/17--17-17-14-12---------------

A--------10----10h12/14----14--------------------------------14-12----10---

E--10h12----12-----------------------------------------------------12------

e-----------------------------------------------------------------------------

B--------------------------------------------------------------17-------20----

G----------------------------------------17----17-19-17--17h19----17h19-------

D----------------------------17----17-19----19--------------------------------

A--/17-17-17-15-----15-17/19----19--------------------------------------------

E---------------17------------------------------------------------------------

e-------17-20-17----------------------17----------------------------------------

B----------------20-17----20---17/20-----20-17----------------------------------

G-17h19----------------17----------------------19b-17h19p17----17---------------

D-----------------------------------------------------------19----19-17---------

A-----------------------------------------------------------------------19-17/15

E-------------------------------------------------------------------------------

e-------------------------------------------------------------------------------

B-------------------------------------------------------------------------------

G-------------------------------------17b---------------------------------------

D-------------17----17-17h19p17----17-----17------------------------------------

A----15-17/19----19-------------19----------------------------------------------

E-17----------------------------------------------------------------------------

e-15h17p15--15h17p15--15h17p15--15h17p15--15h17--20b-17-------------------------

B-------------------------------------------------------20-17----17-20----------

G-------------------------------------------------------------19----------------

D-------------------------------------------------------------------------------

A-------------------------------------------------------------------------------

E-------------------------------------------------------------------------------

The rest of the solo isn't too bad...he just keeps going up

and down that Am scale. I'll try to get it up here soon.

Get this song at:  amazon.com sheetmusicplus.com

Share your thoughts

0 Comments found