Cross Canadian Ragweed

Cross Canadian Ragweed - Breakdown guitar tab

capo 2

*intro:

e---3----------------------

B---3---3-1-0--------------

G---0----------------------

D---0-----------1h2---0h2p0

A---2----------------------

E---3----------------------

G Cadd9

i build a ladder to the moon

G Cadd9

and there i'd carve your name

G Cadd9

if it would brighten up this room

G Cadd9

but you know that anyway

well i can't be the rock

not today

sometimes i wanna pop

well sometimes i wanna say

cho:

D C

and i'd like to break down

D C

and i can't find the time

D C Bm Em

you're all lookin' to me to keep it in line

Cadd9 G

i hope i can keep it in line

(2) i'm gonna keep it in line

(3) i'm gonna keep it in line just like every single time

sometimes i slow it down

to hear what i haven't heard

when darkness rolls around

i scream out the word

his picture's on my wall

and he looks about my age

i wonder if he ever broke at all

i wonder if he ever had to scream

(cho:)

it's gonna work itself out

it always does

at the last drop of doubt

it's just like it never was

(cho:)

*the intro is as close as i can get it.*

ive also played the intro as is below and

it seems to sound good:

e---3----------------------

B---3---3-1-0--------------

G---0-----------4/5--------

D---0-----------------0h2p0

A---2----------------------

E---3----------------------

Get this song at:  amazon.com sheetmusicplus.com

Share your thoughts

0 Comments found