Cross Canadian Ragweed

Cross Canadian Ragweed - Boys From Oklahoma intro guitar tab

Show Gene what you can do for the boys from Oklahoma!

G C D G

E----3-3--3-3-3-3-|--3-3-3--2-2-3-2-3-3-3-----------

B----3-3--3-3-3-3-|--3-3-3--3-3-3-3-3-3-3-----------

G----0-0--0-0-0-0-|--0-0-0--2-2-2-2-2-2-0-----------

D--0-0-0--0-0-0-2-|--2-2-2--0-0-0-0-0-0-0-----------

A--2-2-2--2-2-2-3-|--3-3-3--------------------------

E--3-3-3--3-3-3---|---------------------------------

G C D G

E------------3-3--|--2-2-3-2-3-3-3------------------

B------------3-3--|--3-3-3-3-3-3-3------------------

G----------0-0-0--|--2-2-2-2-2-2-0------------------

D----------2-2-2--|--0-0-0-0-0-0-0------------------

A----0-2-3-3------|---------------------------------

E--3--------------|---------------------------------

Get this song at:  amazon.com sheetmusicplus.com

Share your thoughts

0 Comments found