Cross Canadian Ragweed

Cross Canadian Ragweed - Back Around solo guitar tab

Here is the solo/intro to Back Around.

Its the same thing over and over again but the second half he generally plays it an octave higher

--------------------------------------

--------------------------------------

--------------------------------------

--------------------------------------

5-4-5-------5-4-5-7---5-4-5---7b9-7-7-

------2---------------------2---------

----------------------------------------

----------------------------------------

----------------------------------------

----------------------------------------

5-4-5-7-----5-4-5-----5-4-5-7---7b9-7-7-

------------------2---------------------

Second Half Octave higher

--------------------------------------

------5-----------------------5b7-5-5-

7-6-7-------7-6-7-------7-6-7---------

------------------4-------------------

--------------------------------------

--------------------------------------

Any questions/comments etc. zacrobinson@tamu.edu

Get this song at:  amazon.com sheetmusicplus.com

Share your thoughts

0 Comments found