Cross Canadian Ragweed

Cross Canadian Ragweed - Anywhere But Here lead guitar tab

solo play 4 times.

------5----9-7-5--------------------------

--------5---------------------------------

--5/7-------------------------------------

------------------------------------------

------------------------------------------

------------------------------------------

and then...

------------------------------------------

------------------------------------------

----------------------5b-------------8-7-5

-5-7-7-5-7--7-7-5-7-7----7-7-5-7-7-7------

-0-0-0-0-0--0-0-0-0-0----0-0-0-0-0-0------

------------------------------------------

on the last one play this

----------------------------------3-------

----------------------------------3-------

----------7b7p5---5---------------0-------

-5-7-7-7--------5---7-5-----------0-------

-o-0-0-0----------------7-6-5-----2-------

------------------------------8-5/3-------

Get this song at:  amazon.com sheetmusicplus.com

Share your thoughts

0 Comments found