Cross Canadian Ragweed

Cross Canadian Ragweed - Alabama2 solo guitar tab

Alabama solo

There was a little part I screwed up on the first time....should be right now.

This is the way Cody plays it on the Soul Gravy CD. He plays it a little differently every time.

br-bend and release

pbr- prebend & release (bend before you hit the string and then release)

e------------------------7--------------------------------------------I

B---------------------------------------------------------------------I

G--------------7------9br---9pbr--7-----------------------------------I

D--------7--9----9-9------------------9p7---7h9-7---------------------I

A----/9-----------------------------------9--------9s7--5----5—7s9----I

E---------------------------------------------------------7-----------I

e-----------------------------10—7-7\--------------------------10-----I

B----------7-8-10--8—8h7—b10-----------/8-8-8h7-----------------------I

G-----7h9----------------------------------------9-7-9br-7---7--------I

D—7h9------------------------------------------------------9----------I

A—--------------------------------------------------------------------I

E---------------------------------------------------------------------I

e---------------------------------------------------10-9-7------------I

B----------------------------------------------------------10-8—8-7---I

G—7-9br-9-9-9p7------------------------------7------------------------I

D—--------------7h9-7------------------7-7h9--------------------------I

A—--------------------9s7--5---5—7s9----------------------------------I

E----------------------------7----------------------------------------I

e---------------------------------------------------------------------I

B---------------------------------------------------------------------I

G-9br-7--9br-7--------------------------------7-9br-7-----------------I

D—-------------9p7---7h9-7-----------7-7-7h9--------------------------I

A—-----------------9-------9s7-5—7s9----------------------------------I

E---------------------------------------------------------------------I

Get this song at:  amazon.com sheetmusicplus.com

Share your thoughts

0 Comments found