Cross Canadian Ragweed

Cross Canadian Ragweed - Alabama solo guitar tab

Alabama ( lead )

Cross Canadian Ragweed

Soul Gravy

CrossCanadianTX

solo ( the little extra part that he does on the dvd )

e----10--9--7----------------------------------------------|

B--------------10--7--8--10--8--7--------------------------|

g----------------------------------9r7-7-7h9-7-------------|

d-----------------------------------------------9--7-------|

a----------------------------------------------------7--5--|

E----------------------------------------------------------|

e------------------------------------------|

b------------------------------------------|

g------------7h9r7r0--7--------------------|

d-------7h9--------------------------------|

a--5h7-------------------------------------|

E------------------------------------------|

the extra part on the cd is very similar, you just pause and dont hit a couple of notes, very easy to transition from this to that it was easier for me to tab it this way cuz i like this way better!! Long Live Ragweed!!

Get this song at:  amazon.com sheetmusicplus.com

Share your thoughts

0 Comments found