Cross Canadian Ragweed

Cross Canadian Ragweed - Alabama intro guitar tab

Alabama - Intro

Cross Canadian Ragweed

Tabbed by Guitarviper

Intro:

Rhythm Guitar

-------------------------------------------------------------------------------------------

-------------------------------------------------------------------------------------------

-------------------------------------------------------------------------------------------

-------------10-8-8----------------10---6-----------------10-8-8------------6-6------------

-------10-10-10-8-8-8--------10-10-10-6-6-6---------10-10-10-8-8-8------6-6-6-6-6-6/8-8-8--

-6h8-6/8--8--8--6-6-6--6h8-6/8--8--8--4-4-4---6h8-6/8--8--8--6-6-6--6p4-4-4-4-4-4-4/6-6-6--

--------------------------------------------------------------------------------

--------------------------------------------------------------------------------

--------------------------------------------------------------------------------

-------------10-8-8----------------10---6-----------------10-8-8---------8---8--

-------10-10-10-8-8-8--------10-10-10-6-6-6---------10-10-10-8-8-8---6-x-8-x-6--

-6h8-6/8--8--8--6-6-6--6h8-6/8--8--8--4-4-4---6h8-6/8--8--8--6-6-6---4-x-6-x----

Lead:

-------------------------------------8p6----------------------------

---------4-4-x--------------4p3---6b-----8-6br-4-6-4------------4v--

-----3/5-------5\3-/5v--3/5-----5--------------------5-3----3h5-----

--/5-----------------------------------------------------/5---------

--------------------------------------------------------------------

--------------------------------------------------------------------

Get this song at:  amazon.com sheetmusicplus.com

Share your thoughts

0 Comments found