Cross Canadian Ragweed

Cross Canadian Ragweed - After All intro guitar tab

Cross Canadian Ragweed

After All

e-------------------------------------

B-------------------------------------

G---------------8--11-----------------

D--------9--11---------11--9----------

A--9/11-----------------------11--9---

E-------------------------------------

e------------------------------9-------

B--------------------------12----------

G---------------8--11--11----------11--

D--------9--11-------------------------

A--9/11--------------------------------

E--------------------------------------

It's probably not 100%, it's just how I play it and I figured it might help out.

Get this song at:  amazon.com sheetmusicplus.com

Share your thoughts

0 Comments found