Credo

Credo - Ja Se S Tebou Rozchazim guitar tab

Ja se s tebou rozchazim CREDO

Ja se s tebou rozchazim dnes uz asi po ste,

pak ti opet zavolam, je to vazne proste.

Solo:

Ami Dmi Ami G C

|-0---0-0---------|---0-1---0-------|-0---0-0---------|----------------|

|-----------3-1---|-3---------------|-----------3-1---|-3-1-0---1------|

|-----------------|-----------------|-----------------|----------------|

|-----------------|-----------------|-----------------|----------------|

|-----------------|-----------------|-----------------|----------------|

|-----------------|-----------------|-----------------|----------------|

C Dmi Ami Ami G Ami

|-0---0-0---------|-1-3-1---0-------|-0---0-0---------|----------------|

|-----------3-1---|-----------------|-----------3-1---|-3-1-0----------|

|-----------------|-----------------|-----------------|---------2------|

|-----------------|-----------------|-----------------|----------------|

|-----------------|-----------------|-----------------|----------------|

|-----------------|-----------------|-----------------|----------------|

G Ami

|-----------------|

|-1-0-------------|

|-----2-0-2-------|

|-----------------|

|-----------------|

|-----------------|

Ami G Ami G C

Zas se ti vyhybam a vis, ze z pisku hrad nepostavis,

G C G Ami

stacilo jen par kratkych vet a podle nas se tocil svet,

G Ami

ja v nem rad tocil jsem se s tebou.

C G Dmi F G

Tak mi stale nelzi, ze jsem az druhy, znam te dele nez svoje dluhy,

C G Dmi F G

mas tvrdsi hlavu, vsak slabsi nervy, mezi nami ted bezi derby.

C G F G C

Citim jistou ranu, jdi si klidne dal,

C G F G C

nechci vstavat k ranu, vlastnich snu se bat.

Jak dlouho tohle trvat ma, svuj zivot mel by kazdej znat,

a proto odchazim jak vis jsme si zas dale nezli bliz,

vzpominky zustavaji stranou.

Sousede nas uz davno nezdravi, to nas jen tesi na nas to neplati,

my zijem solo a nekdy i spolu, lepime predstavy klidneho domu.

C G F G C

Ja se s tebou rozchazim dnes uz asi po ste,

G F G C

pak ti opet zavolam, je to vazne proste,

G F G C

schazi mi neco a doufam, ze nemas stejne s kym spat,

G F G Ami

kdyz telefon zavesim, muzu klidne se smat.

solo

Zas se ti ...

Citim jistou ...

A kdyz se s tebou rozchazim, je to krute,

pote? hned vyzitky, radeji bych utek,

na zemi neni raj, vsechno je napul,

nekdy si pripadam jako v plote kul.

Ja se s tebou ... 2x

Ami Dmi Ami Ami Dmi Ami

|-0---0-0---------|---0-1---0-------|-0---0-0---------|---0-1---0------|

|-----------3-1---|-3---------------|-----------3-1---|-3--------------|

|-----------------|-----------------|-----------------|----------------|

|-----------------|-----------------|-----------------|----------------|

|-----------------|-----------------|-----------------|----------------|

|-----------------|-----------------|-----------------|----------------|

Transcribed by Marek Horensky, Czech Republic

E-Mail xhorensk@fi.muni.cz, horez@post.cz

Get this song at:  amazon.com sheetmusicplus.com

Share your thoughts

0 Comments found