Colinde

Colinde - O brad frumos (solo) guitar tab

||---|---------|-------------------|---|

||---|---------|-------------------|---|

||---|---------|2-2-2---2---2-3----|---|

||---|-3-3-3-5-|----------5-----2-5|-3-|

||-3-|---------|-------------------|---|

||---|---------|-------------------|---|

-------|-----------------------|

-------|3----------------------|

-5-5-2-|--5-5-3-3-3-3---5-3-3-2|

-------|--------------5--------|

-------|-----------------------|

-------|-----------------------|

Get this song at:  amazon.com sheetmusicplus.com

Share your thoughts

0 Comments found