Clint Black

Clint Black - A Better Man 2 intro guitar tab

A Better Man

Clint Black

Intro:

F#m E B

e-----------------------------------------------------------

b-----------------------------------------------------------

g---------------------------------4-------4-----------------

d--6b------------4----------------4-------4-----------------

a-----------------------7-----2-------2---------------------

E-----------------------------------------------------------

A E/G# B E

e-----------------------------------------------------------

b-----------------------------------------------------------

g-/6-----4-----2--------------------------------------------

d-/7-----6-----4----4---/6----------------------------------

a-------------------6---/7-------2--------------------------

E----------------------------------2b--0--------------------

Get this song at:  amazon.com sheetmusicplus.com

Share your thoughts

0 Comments found