Clement Peerens Explosition

Clement Peerens Explosition - Wa Was Da Met Den Dikke guitar tab

Date: 2:52 10/09/2000 GMT +01:00

From: Soenen Martijn [martijnsoenen@hotmail.com]

Notes:

This song is simple. Though, if you

have any suggestions, please mail me.

Play this song with lots of "arrogance".

Subject: TAB: Clement Peerens Explosion - Wa was da me den dikke ?

Artist: Clement Peerens Explosion

Song: Wa was da me den dikke ?

Riff:

E |-------------------------------|--------------------------------------------|

B |-------------------------------|--------------------------------------------|

G |-------------------------------|--------------------------------------------|

D |-------------------------------|--------------------------------------------|

A |-0-0-0-3-0-5-3-0-5-3-0-5-3-----|-0-0-0-3-0-5-3-0-0--------------------------|

E |-------------------------------|--------------------------------------------|

Advanced riff: powerchords used: E5 G5 A5

E |-------------------------------|--------------------------------------------|

B |-------------------------------|--------------------------------------------|

G |-------------------------------|--------------------------------------------|

D |-2-2-2-5-0-7-5-0-7-5-0-7-5-----|-2-2-2-5-0-7-5-0-0--------------------------|

A |-2-2-2-5-0-7-5-0-7-5-0-7-5-----|-2-2-2-5-0-7-5-0-0--------------------------|

E |-0-0-0-3-0-5-3-0-5-3-0-5-3-----|-0-0-0-3-0-5-3-0-0--------------------------|

================================================================================

"Keep on rockin' in the free world

Neil Young

Get this song at:  amazon.com sheetmusicplus.com

Share your thoughts

0 Comments found