Chris Ledoux

Chris Ledoux - Tougher Than The Rest lead guitar tab

Tougher Than The Rest

tabbed by guitarviper

Standard Tuning

/\ = slide b = bend br = release bend pbr = prebend release

Intro:

----------------------------------------------------------13-----------

------10/11--11--10--10------10/11--11--13--13--8--8--13b----13br--11--

---10--------------------10--------------------------------------------

-----------------------------------------------------------------------

-----------------------------------------------------------------------

-----------------------------------------------------------------------

-------------------------------

--11--11--10--10--8--8\--1--1--

-------------------------------

-------------------------------

-------------------------------

-------------------------------

Lead Break:

----------------------------------------------------------13-----------

------10/11--11--10--10------10/11--11--13--13--8--8--13b----13br--11--

---10--------------------10--------------------------------------------

-----------------------------------------------------------------------

-----------------------------------------------------------------------

-----------------------------------------------------------------------

-----------------------------------------------------------------------

--11--11--10--10--8--8\--1--1------------------------------------------

---------------------------------3pbr--3pbr--3pbr--2brbr-----------2--3

----------------------------------------------------------------3------

----------------------------------------------------------3--3---------

-----------------------------------------------------------------------

-----------------------------------------------------------------------

-----------------------------------------------------------------------

--2--3/5--5--0--0--------14--15--15--15--14------14--12------12--12/14-

--------------------/17----------------------17----------15------------

-----------------------------------------------------------------------

-----------------------------------------------------------------------

-----------------------------

-----------------------------

-10------15--14--14--12--10--

-----12----------------------

-----------------------------

-----------------------------

The Outro is basically the same as the lead break with the exception of

a fill or two near the very end.

Get this song at:  amazon.com sheetmusicplus.com

Share your thoughts

0 Comments found