Chris Ledoux

Chris Ledoux - Song Of The Yukon Rose guitar tab

Song: Song of the Yukon Rose

Artist: Chris LeDoux

Tuning: Standard (EBGDAE)

Tab by Beau Hindman (beau_hindman@hotmail.com)

Intro:

E|---------------------|

B|---------------------|

G|---------------------|

D|-2---7-x-7---5--4--2-|

A|-2---7-x-7---5--4--2-|

E|-0---5-x-5---3--2--0-|

Verse: This fill occasionally:

E|-0----0----3----2----0-|-------|

B|-0----0----3----2----0-|-------|

G|-0----0----4----3----0-|-------|

D|-2----7----5----4----2-|-----2-|

A|-2----7----5----4----2-|-------|

E|-0----5----3----2----0-|-3-0---|

Chorus

E|---------------|-------|------------|

B|---------------|-------|------------|

G|---------------|-------|-11^^^^-9~~-|

D|-7---5---4---2-|-----2-|------------|

A|-7---5---4---2-|-------|------------|

E|-5---3---2---0-|-3p0---|------------|

2nd verse fill:

E|---------------------------|

B|---------12----------------|

G|-14^^----12----------------|

D|-------------14~~--12h14~~-|

A|---------------------------|

E|---------------------------|

Guitar solo at the end:

E|---------------------------------------------------|

B|---------------------------------------------------|

G|--------------12-14-12-14^-12-14^-12---------------|

D|-------12-14~------------------------14p12~-12h14~-|

A|-12-14---------------------------------------------|

E|---------------------------------------------------|

E|---------------------|

B|---------------------|

G|---------------------|

D|---------------------| That's all I got

A|-14p12---------------|

E|-------14p12-10h12~--|

Take care.

Get this song at:  amazon.com sheetmusicplus.com

Share your thoughts

0 Comments found