Chris Ledoux

Chris Ledoux - Seventeen intro guitar tab

you will want to download the song for the correct timing. this is my first tab so be easy on me...;)

e---------------------------------------------------------

B---------------------------------------------------------

G-------------0-1/2 2-2-4-2-2-2-2-0-0-0-0-----------1/2-2-

D-------0-2-4-----------------------------4-2-0-2-4-------

A-0-2-4---------------------------------------------------

E---------------------------------------------------------

e--------------------0-2-3-3/5-5-5-7-5-5-5-5-3-3-3-3-2-0--

B-2-2-3-2-0-----0-2-3------------------------------------3

G------------2--------------------------------------------

D---------------------------------------------------------

A---------------------------------------------------------

E---------------------------------------------------------

e-0-2-2/5-5-9-9-10-9-7-7-5-3-2-0--------------------------

B--------------------------------3-------------------------

G---------------------------------------------------------

D---------------------------------------------------------

A---------------------------------------------------------

E---------------------------------------------------------

Get this song at:  amazon.com sheetmusicplus.com

Share your thoughts

0 Comments found