Chris Ledoux

Chris Ledoux - Seventeen guitar tab

First, before I start this tab, Id like to pay my respect, for chris passing away on

Wednesday morning, March 9th, 2005. My dad is also a musician, and if you are into

chris, check my dad out, at www.theronbrownband.com. Thank you.

This song is in standard tuning.

h=Hammer-On

s=Slide

e---------------------------------------------------------------------------|

b--------------------------------------------------------------2-2-3-0------|

g------------0-0-h2-2-2-3-2-2-2-2-0-0-0-0-------------0-h2-2-2--------------|

D------0-2-4-------------------------------4-2-0-2-4------------------------|

A-0-2-4---------------------------------------------------------------------|

E---------------------------------------------------------------------------|

e-----------3-0-3s5-5-5-7-5-5-5-5-3-3-3-3-2-0--2-3-3s9-10-9-7-7-5-3-2-0-2-|

b-----2-3-0-----------------------------------3-------------------------3-|

g-2-4-------------------------------------------------------------------2-|

D-----------------------------------------------------------------------0-|

A-----------------------------------------------------------------------0-|

E-----------------------------------------------------------------------0-|

the chords that he plays goese in order D, A, G. He picks the last 3 strings

of each chord, if you listen closely, you can hear it on the recording. The

chorus goese Bm, G, D, I Think. But I could be wrong.

I think thats all, if you have any questions, feel free to e mail me at close_to_the_flame_06@yahoo.com.

Thank You.

Get this song at:  amazon.com sheetmusicplus.com

Share your thoughts

0 Comments found