Chris Ledoux

Chris Ledoux - Seventeen Corrected intro guitar tab

e-----------------------------------------------------------

b-----------------------------------------------------------

g-------------0h2-2-2-4-2-2-2-2-0-0-0-0------------0h2-2-2--

d--------0-2-4--------------------------4-2-0-2-4-----------

a-0-2-4-----------------------------------------------------

e-----------------------------------------------------------

e--------------------0-2-3-3/5-5-5-7-5-5-5-5-3-3-3-3-2-0----

b-2-2-3-2-0-----0-2-3------------------------------------2--

g-----------0-2---------------------------------------------

d-----------------------------------------------------------

a-----------------------------------------------------------

e-----------------------------------------------------------

e-0-2-2/5-5-5-9-9-10-9-7-7-5-3-2-0--------------------------

b----------------------------------3------------------------

g-----------------------------------------------------------

d-----------------------------------------------------------

a-----------------------------------------------------------

e---------------------------------------------------------

when you get to the end of the song and your playing the intro

part for the last time.go back to struming D but stay on D for

about 4 counts then do this

e------------------------------------------------------------

b------------------------------------------------------------

g------------------0-----------------------------------------

d-------------0h2--------------------------------------------

a----0--2--3-----------3--3--2--0----------------------------

e------------------------------------------------------------

right after the last open on A strum E Minor slowly

Get this song at:  amazon.com sheetmusicplus.com

Share your thoughts

0 Comments found