Chris Ledoux

Chris Ledoux - One Ride In Vegas lead guitar tab

One Ride in Vegas Chris Ledoux

Key F#. This lead is tabbed to standard tuning. The acoustic part is best

played with the guitar tuned a half-step down (play G), but can be played based

off the E-chord with capo at 2nd fret.

Acoustic rhythm pattern

E[G]--3------[C]--3------[D]--2----[G]--3--------|

B---------3-----------3-------3-------------3----|

G---0---0-------0---0-------2---------0---0---0--|

D-------------------------0-----0----------------|

A-------------3----------------------------------|

E-3---------------------------------3------------|

Intro Verse riffs

E----------------18--------|-(0:26)-----|-6~---------|--------|-(0:56)---------|

B-------------------pb-r---|------------|-7~-tremelo-|-9/11---|----------------|

G-------------------(20)18-|------------|-8~---------|--------|-6-pbr-bh-------|

D-------bh-----------------|------------|-8~---------|--------|---(8)6(8)------|

A-pbr--6(8)-4--------------|-/6-4-------|-6~---------|-(0:49)-|-----------4h6--|

E-(6)4---------------------|------6\4-2-|-(0:33)-----|--------|----------------|

E-(1:02)----------------|------------------|-(1:15)----------------------------|

B-----------------------|---b--r------bh---|-----------------------------------|

G-----------------------|-10(11)10~--6(8)--|-6-bh---b-r------------------------|

D-----------6(8)~-------|------------------|--6(8)-6(8)6-----------------------|

A-------4h6--------6----|-(1:08)-----------|-----------------------------------|

E-2-4h6-----------------|------------------|-----------------------------------|

E-(1:19)-----------------|-(2:00)--|-(2:44)-|---(2:49)-------------------------|

B------------------------|---------|--------|----------------------------------|

G---------------6-8-6/8--|---------|--------|-----bh---------------------------|

D-----------4-6----------|--bh--4--|--------|----3(4)--------------------------|

A-------4h6--------------|-4(6)----|-4-6-4--|---------6---2--------------------|

E-2-4h6------------------|---------|--------|-----------2----------------------|

Solo 1

E-(2:17)-----------------6---6-9-6---6---6--9-----9~--9---------9--9--9-9-9--9-|

B-----------------------------------------------11~-----11p9h11-12-11-9-7-11-9-|

G-6--bh--6-br----------6---6-------6---6---------------------------------------|

D---6(8)-6(8)6-----------------------------------------------------------------|

A--------------4h6~/-----------------------------------------------------------|

E------------------------------------------------------------------------------|

Solo 2

E----------------|-------------------------------------------------------------|

B-9----9-9--bh---|-------------------------------------------------------------|

G---10-----8(10)-|-6-6-----6-----4---4-4h6--6-6-6—10-10-10---------------------|

D----------------|-6-6(8)6-4-----------------9-9--11-11-11---------------------|

A----------------|----b-r----4h6---4-------------------------------------------|

E----------------|-------------------------------------------------------------|

E------------------------------------------------------------------------------|

B------------------------------------------------------------------------------|

G--6--6--6---6-----4----6-6-6-6-6-10-10-10-10-10-------------------------------|

D-(8)(8)(8)6-4---------9-9-9-9-9-11-11-11-11-11--------------------------------|

A--pb-----r----4h6---4---------------------------------------------------------|

E------------------------------------------------------------------------------|

E------------------------------------------------------------------------------|

B-11----------11----12-14-12----11---------b--r-----b--r-----b--r-----fades----|

G----11-13-11----11----------11----11-11-13(15)13-13(15)13—13(15)13----out-----|

D------------------------------------------------------------------------------|

A------------------------------------------------------------------------------|

E------------------------------------------------------------------------------|

Get this song at:  amazon.com sheetmusicplus.com

Share your thoughts

0 Comments found