Chris Ledoux

Chris Ledoux - Old Paint lead guitar tab

Chris LeDoux Old Paint

Key E

Intro:

E-----------------7-----------------------------------------|

B-9h12-12~--7---7---/9~--/9-----7---------/9-----7----------|

G-------------9-------------9-----8----------9-----8--------|

D-----------------------------9-----9-6~-------9-----9-6~---|

A-----------------------------------------------------------|

E-----------------------------------------------------------|

Verse riffs:

E-12--------|-------bh---|--pb--r-----|-----------|---------|

B----12-12~-|-/5-7-7(9)--|-(9)(9)7p5--|-9h12-12~--|-12-9----|

G-----------|------------|------------|-----------|---------|

D-----------|------------|------------|-----------|---------|

A-(0:42)----|-(0:47)-----|--(0:50)----|-(0:56)----|-(1:03)--|

E-----------|------------|------------|-----------|---------|

E-----------------7-----------------------|-(1:31)----------|

B-9h12-12~--7---7---/9~--/9-----7---------|--/9-\4----------|

G-------------9-------------9-----8-------|--/9-\4----------|

D-----------------------------9-----9-6~--|--/9-\4----------|

A-(1:06)----------------------------------|-----------------|

E-----------------------------------------|-----------------|

E-(1:55 & 2:38)--|--------------7~/12--|-7/12-----12-12-----|

B----------------|--5-7/9-----9--------|--------------------|

G—4/6-6/8-8-8/9--|---------------------|--------------------|

D----------------|---------------------|--------------------|

A----------------|-(3:20)--------------|-(3:31)-------------|

E----------------|---------------------|--------------------|

Solo 1:

E---7-7--------7----------------------|--12-------12--------|

B-9-----/7-5-7---7/9--/9-----7--------|-----12-12----12~----|

G------------------------9-----8------|---------------------|

D--------------------------9-----9-6--|---------------------|

A-(2:10)------------------------------|---------------------|

E-------------------------------------|---------------------|

E-----bh---7--bh--------------------------------------------|

B-/5h7(9)~---7(9)~--/9-----7--------------------------------|

G-------------------/9-9---8-8-8---9------------------------|

D----------------------9-9-----9-/6-------------------------|

A------------------------7----------------------------------|

E-----------------------------------------------------------|

Solo 2:

E-16-19------bh-----16-------14-----------16-------14-----------------|

B-------17-19(21)~-----17-------16-----------17-------16-----------12~|

G-------------------------16-------16-13~-------16-------16-13-/13----|

D---------------------------------------------------------------------|

A-(2:52)--------------------------------------------------------------|

E---------------------------------------------------------------------|

Solo 3:

E---7-7--------7----------------------|--12-------12--------|

B-9-----/7-5-7---7/9--/9-----7--------|-----12-12----12~----|

G------------------------9-----8------|---------------------|

D--------------------------9-----9-6--|---------------------|

A-(3:42)------------------------------|---------------------|

E-------------------------------------|---------------------|

E-----bh--7------bh-----------------------------------------|

B-/5h7(9)---7-5-7(9)-7/9-----7------------------------------|

G------------------------9-----8-----9-99-------------------|

D--------------------------9-----9-6------------------------|

A-----------------------------------------------------------|

E-----------------------------------------------------------|

E-----------------------------------------19-16-------------|

B------99-1010-10---10/12-----17----17----------------------|

G------99-1111-11p9-11/13--16----16----16-------------------|

D-9/11------------------------------------------------------|

A-----------------------------------------------------------|

E—fading out on cd------------------------------------------|

Get this song at:  amazon.com sheetmusicplus.com

Share your thoughts

0 Comments found