Chris Ledoux

Chris Ledoux - Old Paint intro guitar tab

korry@

Intro:

E|-------------------------------------------------|

B|-9h12----------12-9----7/9-----------------------|

G|-------11-9-11-------------9---11-8--------------|

D|-----------------------------9------9------------|

A|--------------------------------------11---------|

E|-------------------------------------------------|

E|-----------------------|

B|--7/9------------------|

G|------9---11-8---------|

D|--------9------9-------|

A|-----------------11----|

E|-----------------------|

Get this song at:  amazon.com sheetmusicplus.com

Share your thoughts

0 Comments found