Chris Ledoux

Chris Ledoux - Little Long Haired Outlaw intro guitar tab

This may not be exact but it should be real close

The beginning is Chris playing an E chord several times into an E7

Play this twice then go intro main intro

E E E E E E7

E-0-0-0-0-0-0-0-----0------0---------------------------------------0-|

B-0-0-0-0-0-3---3-----3----3-3-3-3-3-1-0--------0-1-3-1------------0-|

G-1-1-1-1-1-1-----1-----1--2-------------2-1-2----------2-1-0------1-|

D-2-2-2-2-2-2--------------2----------------------------------3-2--2-|

A-2-2-2-2-2-2------------------------------------------------------2-|

E-0-0-0-0-0-0--------------------------------------------------------|

Main intro

E-----------------------------------------|

B-----------------------------------------|

G-----------------------------------------|

D----2-0-2---2-0---2-0-2-2-0---0----------|

A----------------------------2---2--------|

E--0-------0-----0-----------------3bp-0--|

Get this song at:  amazon.com sheetmusicplus.com

Share your thoughts

0 Comments found