Chris Ledoux

Chris Ledoux - Honky Tonk World guitar tab

Honky Tonk World

Chris LeDoux

(Craig Wiseman/Paul Nelson)

The Capitol Collection (1990 - 2000) Box Set

20 Greatest Hits

Live

Haywire

TABBED BY JAMES DUGGER January 4th 2003

This song took me forever to figure out! But I garauntee you it is correct!

It seems easy but the way Chris sings the song it sounds like your changing keys

when your not. This song is fast and heavy. So enjoy!!!!

INTRO RIFF

E---0-0--0----P----H-----------------------------------------------------

B---5-5--5---3-2--0-2---H------------------------------------------------

G----------------------0-1-----------------------------------------------

D---------------------------2-2-2---P-----H------------------------------

A----------------------------------5-4---2-4---H-------------------------

E---------------------------------------------3-4------------------------

IMPORTANT!!!

Instead of strumming the chords

the guitarist does this lightly palm muted

EXAPLE

E A B

E------------------------------------------------------------------------

B------------------------------------------------------------------------

G------------------------------------------------------------------------

D----------------------------------2-2-5-6-2-2-5-6-----------------------

A------------------0-0-3-4-0-0-3-4---------------------------------------

E--0-0-3-4-0-0-3-4-------------------------------------------------------

E

There used to be a time candlelight and wine

A

Was all that a woman would need

B

Man you were a winner if you took her out to dinner

E

Or a movie she wanted to see

But the world has turned and it's time you learned

A

That the old ain't working no more

B

Yeah the rules have changed it's a brand new game

E E E E

And buddy if you want to score

CHORUS

A

You've for to get off the couch

Get out of the house

E

Long about Friday night

A

Shine up your boots

F#

Polish up your moves

B B G

If you want to keep her satisfied

E

Oh a little bump and grind'll

Do it every time

A

If you want to keep your little girl

E

But you don't stand a chance

A

'Less you take her out and dance

B E

Cause we're living in a honky tonk world

(VERSE 2 SAME AS ONE)

Sooner or later all you couch potatoes

Are gonna be the lonely ones

If you want good lovin' then you gotta keep up

And you better know your Brook's from your Dunn's

Don't even think that your Englebert Humperdink record's gonna turn her on

Cause mister you can bet if you don't know the steps

Then you're gonna get left at home

REPEAT CHORUS

Get this song at:  amazon.com sheetmusicplus.com

Share your thoughts

0 Comments found