Chris Ledoux

Chris Ledoux - Even Cowboys Like A Little Rock And Roll solo guitar tab

Chris LeDoux - Even Cowboys Like A Little Rock And Roll (solo)

By axehappy - axehappy@

OK...don't follow the tapping in this tab too closely....lol

It shows all the right notes, but you gotta play stuff like that freestyle.

Just get a feel for it, and hammer em out...

I've submitted a soundbyte with this so you can hear the kinda sound you

wanna achieve.

Also, I explain tapping a little in the lessons section if you don't know how

its done...in the lesson called Techniques Used In My Tabs.

**********************************************************************************

b = bend h = hammer-on

\ = slide down t = tapped note

p = pulloff

**********************************************************************************

PLAY WITH SOME OVERDRIVE

E-----10---10-10---10-10---10-10---10-10-10-13b-13b-10--8-------------------

B-----10---10-10---10-10---10-10---10-10-10-12b-12b-10-10-12-10-------------

G--12b--12b-----12b-----12b-----12b-----------------------12-10h11----------

D-----------------------------------------------------------------12-10-12--

A---------------------------------------------------------------------------

E---------------------------------------------------------------------------

E------------------------------------------------------------------------------

B--10\9-h13-t15p13p10h13t15p13p10t15p10t15p10h13t15p13p10t17p13t17p13t17p10t17-

G------------------------------------------------------------------------------

D------------------------------------------------------------------------------

A------------------------------------------------------------------------------

E------------------------------------------------------------------------------

E-----------------------------------9-9-9-8-9\8-7-5---|

B--h13t17p13p10t17p13p17p13-17p10\--------------------|

G-----------------------------------9-9-9-8-9\8-7-6---|

D-----------------------------------------------------|

A-----------------------------------------------------|

E-----------------------------------------------------|

Get this song at:  amazon.com sheetmusicplus.com

Share your thoughts

0 Comments found