Chris Ledoux

Chris Ledoux - County Fair lead guitar tab

Chris Ledoux – County Fair Key: A

Verse Riffs

E------(#1)--------|--(#2)-----|-/7\5---(#3)-------| E---7----9--------|

B------------------|-----------|-/7\5--------------| B-----------------|

G-/11\9~~----------|-----------|------6p4----------| G-7---/9----------|

D-/11\9~~----------|-6\4p2-1/2-|----------6/7------| D-----------------|

A------------------|-----------|-------------------| A-(chorus riff)---|

E----------0h2-----|-----------|-------------------| E-----------------|

Solos: Each chorus ends with a solo… I’ve broken this up into sections

as some parts aren’t played in each solo.

1st solo: A, B, C

2nd solo: A, B, D

3rd solo: A, E

E-[A]-------------------|--------------------------|

B-----------------------|--------------------------|

G-----------------------|--------------------------|

D--b-r------------------|--b-r---------------------|

A-2(4)2-0-------0-2-0---|-2(4)2-0---0----------0---|

E---------2-4-4-------0-|---------2---4----0h2-----|

E-[B]-------------------| |-[C]-----------| |---[D]--------------|

B-----------------------| |-5----5--5---2-| |-5-pb-r-------------|

G-----------------------| |-4(6)(6)(6)4-2-| |---(6)4-4-6---------|

D--b-r------------------| |--bh------r----| |------------6-7-----|

A-2(4)2-0-------0-2-0---| |---------------| |--------------------|

E---------2-4-4-------0-| |---------------| |--------------------|

E-[E]-------------------------12-------------------|

B-----------------------------12(14)-12-10-10~-----|

G—-9----9-9-------------2-2/9---bh-----------------|

D-(11)9-9-9-7-------2-4----------------------------|

A-pb-r--------0-2/4--------------------------------|

E--------------------------------------------------|

Been workin’ like a dog slavin’ on the fence line,

Stretchin’ those wires tight. (Riff #1)

Diggin’ and tappin’ and sweatin’ in the sunshine,

But I get off tonight.

I got a date with a girl a purty rancher’s daughter,

Green eyes and golden hair. (Riff #1)

Gonna pick her up at eight after some soap and water,

And we’re headin’ to the county fair.

CHORUS

Well there’s a full moon in the western sky,

And there’s magic in the air. (Chorus riff)

Ain’t nothing I know of, can make you fall in love,

Like a night at the county fair.

SOLO 1

Well we walk through the midway the lights and the laughter,

She puts her little hand in mine. (Riff #2)

Well she don’t act like she knows what I’m after,

But tonight I’m gonna make her mine. (Riff #3)

You know the tunnel of love well it ain’t my style,

So I take her on the Ferris Wheel. (Riff #1)

Way up in the sky with the stars in her eyes,

I’m gonna tell her just how I feel.

CHORUS

SOLO 2

Well I know Monday morning I’ll be back on the fence line,

But it’ll be all right.

Cause that purty little girl says she’s gonna be all mine,

And I’ll see her next Friday night.

CHORUS

Ain’t nothing I know of can make you fall in love,

Like a night at the county fair.

SOLO 3

Get this song at:  amazon.com sheetmusicplus.com

Share your thoughts

0 Comments found