Chris Ledoux

Chris Ledoux - Copenhagen (with Toby Keith) solo guitar tab

Chris LeDoux & Toby Keith - Copenhagen (solo)

By axehappy - axehappy@

***********************************************************************

p = pulloff b = bend

h = hammer-on br = bend & release

/ = slide up

***********************************************************************

D G D E

E-----------------------------------------------------2--5--4---7-

B--7p5-5-7p5-7b-7-5h7--5br-p3---5-----------------3-5b-8b-7b-10b--

G--7p5-5-7p5-7b-7-5h7--5br-p3---5--------------2-4----------------

D-----7-----7----------------5p3-3b-0-----0-2/4-------------------

A--------------------------------------0h2------------------------

E-----------------------------------------------------------------

A D

E--13b-10----------------------|

B--12b-10-12br-p10--12-10b-----|

G---------12br-p10--12-10b-----|

D-----------------12------12---|

A------------------------------|

E------------------------------|

During the piano part after the lead, you'll hear this lead. which ends

the instrumental part :

G D A D

E-------------------------13br-10-------------------------------------|

B----------------5b-------12br-10-12br-10-12p10-10----10--------------|

G------7-10b-7---5b---------------12br-10-12p10-10h11-10b-------------|

D------------------7-------------------------------------12-10--10/12-|

A-7-8-9-------------------------------------------------------12------|

E---------------------------------------------------------------------|

Get this song at:  amazon.com sheetmusicplus.com

Share your thoughts

0 Comments found