Chris Ledoux

Chris Ledoux - Can't See Him From The Road lead guitar tab

e:----------------------------------------------------

B:----------------------------------------------------

G:---------2--0--2h4--2-------------------------------

D:0--2--4----------------2h4-2-0-2h4--2--4r2----0--2h4

A:-------------------------------------------4--------

E:----------------------------------------------------

e:----------------------------------------------------

B:----3-----------------------------------------------

G:-2---------------2--0--2h4--2-----------------------

D:--------0--2--4----------------4--0--2h4-2--4r2-----

A:-------------------------------------------------4--

E:----------------------------------------------------

e:----------------------------------------------------

B:----------------------------------------------------

G:-----------------------------------0--2h4--2--------

D:0--2h4--2h4--4r2--0----0--2--4--4-------------4--0--

A:----------------------------------------------------

E:----------------------------------------------------

e:--------------------------|

B:-------------------------3|

G:----------------------2---|

D:2h4--2--4r2----0--2h4-----|

A:------------4-------------|

E:--------------------------|

This repeats through the whole sone but they change a couple notes here and there

If you listen you shoud get the rest. it also sounds like there is another guitar playing some fill notes

Here is the chorus riff

e:--------------------------------0--------0-|

B:3--2--0-------------3--2--0--3-----2--3----|

G:---------0--2h4-2--------------------------|

D:-------------------------------------------|

A:-------------------------------------------|

E:-------------------------------------------|

Get this song at:  amazon.com sheetmusicplus.com

Share your thoughts

0 Comments found