Chris Ledoux

Chris Ledoux - Billy The Kid guitar tab

Song: Billy the Kid

Artist: Chris LeDoux

Tuning: Standard (EBGDAE)

Tab by Beau Hindman (beau_hindman@hotmail.com)

Intro (violin part):

*___________*

E|---------------------------------17-------------|

B|-/17--20--19h20p19\17--15h17-15-(15)--17-19--17-|

G|------------------------------------------------|

D|------------------------------------------------|

A|------------------------------------------------|

E|------------------------------------------------|

1st ending 2nd ending

*___________*

E|---------------------------|----------------------------|

B|-/19-----------------------|-/19------------------------|

G|-/16-16--------------------|-/16---16h17p16\14----------|

D|---------17p16p14----16-14-|-------------------17-16-14-|

A|------------------17-------|----------------------------|

E|---------------------------|----------------------------|

Guitar part:

Second time only

E|---------------------------------------------|

B|-------7-8-----------7h8p7-----------3-------|

G|-----9-----9-------7-------7-------4---4-----|

D|---9-------------7---------------4-------4---|

A|-7-------------5---------------2-----------2-|

E|---------------------------------------------|

E|-----------------------------|

B|-----------------------------|

G|-----------------------------|

D|-2--2-2-2--2-2-2--2-2-2--2-2-|

A|-----------------------------|

E|-----------------------------|

E|------------------|

B|-17~~12~~---------|

G|---------12~~-----|

D|-------------14~~-|

A|------------------|

E|------------------|

Verse:

E|------------------------|

B|------------------------|

G|-9------7-------------9-|

D|-9------7------9------9-|

A|-7------5------9------7-|

E|---------------7--------|

Sometimes this fill comes in:

E|-8-8-8-8-8-|

B|-8-8-8-8-8-|

G|-----------|

D|-----------|

A|-----------|

E|-----------|

Chorus: Last time:

E|------------------------|-----------|

B|------------------------|-----------|

G|-9------7------5--------|-4---4-7-9-|

D|-9------7------5------5-|-4---4-7-9-|

A|-7------5------3------5-|-2---2-5-7-|

E|----------------------3-|-----------|

Post Chorus:

E|--------------------------------------------------------------------|

B|----8---------------8---------------8-------------------------------|

G|---x--9---7--9-----x--9---7--9-----x--9---7-------------------------|

D|--x-----9---------x-----9---------x-----9---7-----------------7h9---|

A|-x---------------x---------------x------------7--7-5/7--7\(5)-----7-|

E|--------------------------------------------------------------------|

E|------------------------------------------------------------|

B|----8---------------8---------------------------------------|

G|---x--9---7--9-----x--9---9--7---7---(don’t know this part)-|

D|--x-----9---------x-----9----------9------------------------|

A|-x---------------x------------------------------------------|

E|------------------------------------------------------------|

E|-------------------------------------------------|

B|----8---------------8-----------10^10^10^10^p8---|

G|---x--9---7--9-----x--9---9--7-----------------9-|

D|--x-----9---------x-----9------------------------|

A|-x---------------x-------------------------------|

E|-------------------------------------------------|

Guitar solo:

E|-------------|----------------------------------------|

B|-------------|-----------------------------------19~~-|

G|-------------|----------------------------------------|

D|-17p16-------|-14-16-14-16/17-16-14-16/17-16-14/(17)--|

A|-------17p14-|----------------------------------------|

E|-------------|----------------------------------------|

E|------------------------------|

B|-19-20--19-19-20--20^^^^-20~~-|

G|------------------------------|

D|------------------------------|

A|------------------------------|

E|------------------------------|

Violin solo:

This is all I got out of it:

E|------------------------------------

B|------------------------20-20p19\17-

G|-16---14----------------------------

D|-16---------------------------------

A|------------------------------------

E|-----------------------------------

Guitar ending:

E|---------------|

B|---------------|

G|-9-----5-------|

D|-9--9--5--7--2-|

A|-7--9--3--7--2-|

E|----7-----5--0-|

Dive W/Tremblo

E|---------------------------------------------------------0\/-|

B|-------7-8-----------7h8p7-----------3-------------7-----0\/-|

G|-----9-----9-------7-------7-------4---4---------7---7---0\/-|

D|---9-------------7---------------4-------4---------------2\/-|

A|-7-------------5---------------2-----------2---5---------2\/-|

E|---------------------------------------------------------0\/-|

Violin ending:

(I use volume swell)

E|-------------------|----|

B|------15~~\10h12~~-|----| *Tremblo pick

G|-------------------|-9*-|

D|-14~~--------------|----|

A|-------------------|----|

E|-------------------|----|

Get this song at:  amazon.com sheetmusicplus.com

Share your thoughts

0 Comments found