Chicosci

Chicosci - 7 Black Roses guitar tab

7 Black Roses

Chicosci/Chico Science

transcribed by: aaron joshua g. abelardo

legend:

. (palm mute)

^ (bend)

/ (slide)

Intro Part 1:

Guitar 1

|---------------------------------|

|----1---0-1---0-1---0-1---0-1----|

|--2---2-----2-----2-----2-----2--|(continuous lang po 2..)

|---------------------------------|

|---------------------------------|

|---------------------------------|

then.....

Guitar 2

|------------------------------------------------|

|------------------------------------------------|

|------------------------------------------------|

|---7-777777--3-333333--5-555555--2-222--3-333---|

|---7-777777--3-333333--5-555555--2-222--3-333---|

|---5-555555--1-111111--3-333333--0-000--1-111---|

...... ...... ...... ... ...

Intro Part 2:

Guitar 1

|----------------------------------------------------/3----|

|----------------------------------------------------------|

|--5^-4^--5^-4^--5^-4^--5^-4^--5^-4^--5^-4^--5^-4^---------|

|----------------------------------------------------------|

|----------------------------------------------------------|

|----------------------------------------------------------|

Guitar 2

|------------------------------------------------|

|------------------------------------------------|

|------------------------------------------------|

|---7-777777--3-333333--5-555555--2-222--3-333---|

|---7-777777--3-333333--5-555555--2-222--3-333---|

|---5-555555--1-111111--3-333333--0-000--1-111---|

...... ...... ...... ... ...

Verse: (x2)

Guitar 1

|---------------------------------|

|----1---0-1---0-1---0-1---0-1----|

|--2---2-----2-----2-----2-----2--|

|---------------------------------|

|---------------------------------|

|---------------------------------|

when i leave....

Guitar 2

|------------------------------------------------|

|------------------------------------------------|

|------------------------------------------------|

|---7-777777--3-333333--5-555555--2-222--3-333---|

|---7-777777--3-333333--5-555555--2-222--3-333---|

|---5-555555--1-111111--3-333333--0-000--1-111---|

...... ...... ...... ... ...

Guitar 1

(effects..)

Guitar 2

|------------------------------------------------|

|------------------------------------------------|

|------------------------------------------------|

|---7-777777--3-333333--5-555555--2-222--3-333---|

|---7-777777--3-333333--5-555555--2-222--3-333---|

|---5-555555--1-111111--3-333333--0-000--1-111---|

...... ...... ...... ... ...

Chorus:

Guitar 1

|---------------------------|

|--12-13-12-13-12-13-17-13--|

|---------------------------|

|---------------------------|

|---------------------------|

|---------------------------|

Guitar 2

|---------------------------|

|---------------------------|

|---------------------------|

|--7----3-3----10101010-----|

|--7----3-3----10101010-----|

|--5----1-1-----8-8-8-8-----|

these roses died....

Guitar 1

|--------------------15----|

|--12-13-12-13-12-13----13-|

|--------------------------|

|--------------------------|

|--------------------------|

|--------------------------|

Guitar 2

|---------------------------|

|---------------------------|

|---------------------------|

|--7----3-3----10101010-----|

|--7----3-3----10101010-----|

|--5----1-1-----8-8-8-8-----|

black roses died....

Guitar 1

|---------------------------|

|--12-13-12-13-12-13-17-13--|

|---------------------------|

|---------------------------|

|---------------------------|

|---------------------------|

Guitar 2

|---------------------------|

|---------------------------|

|---------------------------|

|--7----3-3----10101010-----|

|--7----3-3----10101010-----|

|--5----1-1-----8-8-8-8-----|

these roses died....

Guitar 1

|--------------------15----|

|--12-13-12-13-12-13----13-|

|--------------------------|

|--------------------------|

|--------------------------|

|--------------------------|

Guitar 2

|---------------------------|

|---------------------------|

|---------------------------|

|--7----3-3----10101010-----|

|--7----3-3----10101010-----|

|--5----1-1-----8-8-8-8-----|

i'm sorry..i miss you..

Pre-verse:

|---------------------------------|

|----1---0-1---0-1---0-1---0-1----|

|--2---2-----2-----2-----2-----2--|

|---------------------------------|

|---------------------------------|

|---------------------------------|

Repeat verse

Repeat chorus (x2)

(tapos...)

|---------------------------|

|---------------------------|

|---------------------------|

|--7----3-3----10101010-----| x4

|--7----3-3----10101010-----|

|--5----1-1-----8-8-8-8-----|

i miss you....

(then...)

|---------------------------------|

|----1---0-1---0-1---0-1---0-1----|

|--2---2-----2-----2-----2-----2--|

|---------------------------------|

|---------------------------------|

|---------------------------------|

hear this i'm yours....

(effects po uli..)

repeat chorus (x4)

-end-

Added by tabs-database.com and our distinguished partners

Get this song at:  amazon.com sheetmusicplus.com

Share your thoughts

0 Comments found