Chet Atkins

Chet Atkins - Ave Maria guitar tab

Ave Maria

Chet Atkins

Tabbed By Guitarviper

Tune 5th string to G

Tune 6th string to D

NH = Natural Harmonic

Intro:

--------------------0--------------------------------------------

----0---6---0-------------------4-----------3-----------4-----7--

------7---7-------5---5-------5---5-------4---4-------5---5------

----------------5-------5---4-------4---5-------5---7-------7-7--

--0-----------0-----------0-----------0-----------0--------------

--------------------------------------------------------------0--

Main Theme: (Played Twice)

--3-----------------2---3/7-----------------------------0-----------------------------7-----

--------0-----------2-----------0------------10p7-8---0---0---------0-NH-10--------10---10--

------0---0-------0---0-------0---0-----------------0-------0-----0---12---------0----------

----0-------0---2-------2---0-------0---0h10--------------------4-------------10------------

--0---------------------------------------------8-9-----------------------------------------

--------------2-----------0-----------0-----------------------2-------------7---------------

----------0---2-3-----3-----------7-----7-----5---3-2---0------9-7-----------6-----6------

--8---8\7---1-------3---3-----------0-------4---4---------12---------5---5-------5---5----

----5---------2---0-------0-----0-----0---4-----------0------0-----0---0---0---6-------6--

--0---------------------------4-----------------------------------------------------------

----------------4-----------0-----------4-----------------11-----6------------------------

----------0-----------------------------------------2------------------------4------------

--5-------------5-7-8p5---------0-----------7---5-5-----------0---7-10p7-9-------------2--

------4-----8-7---------7-8---0---0-------0-----------7-----7---9----------10--------4----

----5-----5-----------------0-------0---0-----0-----7-------------------------------------

--------------------------------------------------0-------7---0----------0-------0--------

--------------5-----8-----9-----------------6------------------------9--------11---5------

--4-----7-----------------------------2-----------------0-------------------0-------------

-----0-------0-------------------------5---------4-5---4-5---7-5---7-------------------5--

-------7-9-7---3-----------3-----------------------------------------8-----0--------------

---0---------0-------2---2-----2-------5-----5---4-5-4-4-5---7-5---7-----0---0-------0----

-------7-8-7-----0h4---4-----4---4p0-----0h4---0---------0-------0-----0-------0---4------

---4---------------------------------2-------------------------------------------0--------

---------7-----0-----------0-----------0-----------0-------0---0-----9-----------------0--

------------5-4-5-8-5---------0-----------------------------5-7-----5---7-10-----8--------

----------3-------7---7-8---0---0---------0-NH----------3---------4---4--------0---0------

------5-----5-4---8-------0-------0-----0---12-NH-----5---5-----4------------0-------9----

--0-4---4-------4-7-------------------4--------7----4-------------------------------------

----------------------8-9-------------------------------------4------------9--------------

------------0-----------------------2-------------0------------------------------7--------

--------------NH--------0---------2-3-6-5-3-5-------5---5-----------3-----------------2----

---------0-NH-12------0------NH-------------------3---3-------------------0-----------2----

-------9---12-------0-----NH-12---3---------------------5-----5---------0---0-------0---0--

----10--------------------7---------------2---0h4---------0h4---4p0---0-------0---2--------

--0-----------------------------------6-----------------------------0----------------------

-----------------10-------------2-----------0-----------0-----------------------2----------

--3/7-----------------5-----3-----------------------------0--------------------------------

----------0---------------3-------0-------0---6---0-------------------4-----3p0-------0----

--------0---0---------5---------0---0-------7---7-------5---5-------5---5---0---0---0------

--2---0-------0---0h4---4-----0-------0---------------5-------5---4-------4-------0--------

----------------------------0-----------0-----------0-----------0-----------0-----4--------

----0-----------0--------------------------------------------------------------------------

--------------------------------------

-------0-----------0---0-3------------

-----0---0-------0---0-----0---0------

---0-------0---4-------------0---0----

-0-----------4-----------0---------4--

--------------------------------------

Ending:

--3-----------13----------------12--------------11--------------10-------------------------

--------0--------------12---------------11--------------10------------8-----------9--------

------0---0---------10----10----------9----9----------8----8--------7---7-------7---7------

----0-------0----12----------12----11--------11----10--------10---9-------9---9-------9----

--0------------0-----------------0---------------0--------------0-----------0--------------

-------------------------------------------------------------------------------------------

------------NH---------3--

--------NH--12--NH-----3--

----NH--12------12--NH-4--

----12--------------12-5--

--0--------------------0--

-----------------------0--

Get this song at:  amazon.com sheetmusicplus.com

Share your thoughts

0 Comments found