Chet Atkins

Take Five Tabs



More from Chet Atkins

Chet Atkins Tabs
Chet Atkins Chords
Chet Atkins Lyrics

TAKE FIVE
                           As recorded by Chet Atkins
                      (From the 2000 Album ALONE  RCA-1973)

Music by Paul Desmond

This is a famous piece that most people will know. It's a good one
to impress people. Bass is important here as per all Atkins stuff.
I put coda's in here cause I didn't feel like doing some parts again.

An all time classic. I love it.


Gtr I (E A D G B E) - 'Guitar'


  Gtr I
|---0----0-|-3-------|--0---0-0-|-3------|---0----0-|-3-------|--0---0-0---|
|---0----0-|---------|--0-------|-2------|---0----0-|---------|--0---------|
|---0----0-|------2--|--------0-|-4---2--|---0----0-|------2--|--------0---|
|----------|------4--|----0-----|--------|----------|------4--|----0-------|
|----------|---2-----|----------|--------|----------|---2-----|--------0---|
|-0----0---|---------|------0---|--------|-0----0---|---------|--5---0-----|


    $
||--8------|-6-7-6-5---|-0-------|-0-0---0-0-|
||o--------|---------8-|---0-----|---0-------|
||---------|-----------|---------|---------0-|
||------7--|-----------|------4--|-----0-----|
||o--------|-7---------|---2-----|-----------|
||---------|-----------|---------|-------0---|


|--2h3p2-0--|-0------0-|------------|
|-----------|---0----0-|--3h5p3-----|
|--------2--|---0----0-|--------4-2-|
|-----------|----------|------------|
|-----------|----------|--2---------|
|-----------|-0----0---|------------|


|---0---0---|-8------|-6-7-6-5---|-0-------|
|-0-----4---|--------|---------8-|---0-----|
|---4-----0-|--------|-----------|---------|
|-----0-----|-----7--|-----------|------4--|
|---------0-|--------|-7---------|---2-----|
|---5---0---|--------|-----------|---------|


|-0-0---0-0-|-------------|------------|
|---0-------|-4-3h5p3-----|--------0---|
|---------0-|---------2-2-|---0----0---|
|-----0-----|-------------|---4----4---|
|-----------|-------------|------------|
|-------0---|-------0-----|-0----0-----|


               D.S. al Coda
               D.S. al Coda
|--2h3p2-0--|---0--0---0-0-|----------|-^12-15--12----|
|-----------|------0-------|----------|-^13--------13-|
|-----------|------------0-|--------------|---------------|
|-----------|--------0-----|----------|---------------|
|--2--------|--------------|--------------|---0-----------|
|-----------|------0---|--------------|---------------|


|-13-^14------|-^10-12--10--|-11-12----!7----|
|----^10-12---|-^12---------|-----8-10-------|
|----^11------|-------------|----------------|
|-------------|-------------|-----------0----|
|-------------|--10---------|----------------|
|-----10------|-------------|----------------|


|-^-8-12--8----|-10s11-----|-7----0-8-10-|--10-12-11-13-|
|-^10-------10-|-----7-8---|---10--------|--------------|
|--------------|-----------|-------------|--------------|
|-----------10-|-----------|-------------|--------------|
|---0----------|-----0-----|-------------|--------------|
|--------------|-----------|-------------|--------------|


|-^12-15--12----|-13-^14------|-^10-12--10--|
|-^13--------13-|----^10-12---|-^12---------|
|---------------|----^11------|-------------|
|---------------|-------------|-------------|
|---0-----------|-------------|--10---------|
|---------------|-----10------|-------------|


|-11-12----!7--|-^-8-12--8----|------10-8-|
|-----8-10-----|-^10-------10-|--6p7------|
|--------------|--------------|-----------|
|-----------0--|-----------10-|-----------|
|--------------|---0----------|-----------|
|--------------|--------------|-----------|


                        &
|-7-0------||---0---0-0-|--------|---0-----0-|
|---0-----o||---0-------|-----3--|---0-------|
|-9--------||---------0-|-----2--|---0-----0-|
|-----7----||-----0-----|-----4--|-----0-----|
|---------o||-0---------|--2-----|-----------|
|----------||-----------|--------|-2-----0---|


|-3-------|---3---4-3--|---------|---7-----7-|-7------|---3---4-3-|--------|
|---------|---5---------|------7--|---8-------|--------|---5-------|-----3--|
|------2--|----------4-|-6----6--|---9-----9-|-----6--|-----3---4-|-----2--|
|---------|------0------|---------|-----0-----|-----7--|-----------|--------|
|---2-----|-0-----------|---------|-----------|--------|-------3---|--2-----|
|---------|-5----7------|---7-----|-5-----0---|--------|-2---------|--------|


|---10----0-|-3------|---0---2---|--------|--0-----0-|-2-------|---0---0-0-|
|----1------|--------|---0---1---|-----3--|--0-------|---------|---0-------|
|----0----0-|-0---0--|---1-----2-|-----2--|--0-----0-|-2----2--|---------0-|
|-----------|-----3--|-----2-----|-----1--|----0-----|---------|-----0-----|
|-0-----0---|--------|-2---------|--2-----|----------|---0-----|-0---------|
|-----------|--------|-----------|--------|------0---|---------|-----------|


                                
|--------|--0-----0-|-2-------|---0---0-0-|--------|-------------|----------|
|-----3--|--0-------|---------|---0-------|-----3--|-(3)---------|-0--------|
|-----2--|--0-----0-|-2----2--|---------0-|-----2--|-(2)-------0-|----------|
|-----1--|----0-----|---------|-----0-----|-----1--|-(1)-----4---|-------0h=|
|--2-----|----------|---0-----|-0---------|--2-----|-------2-----|----------|
|--------|------0---|---------|-----------|--------|-----0-------|-----2h3--|


|----------|-----------|----------|----------|--------*|
|----------|---------0-|-------7--|----------|--------*|
|-0---0----|---0---3---|-3---0----|----------|--------*|
|---7---7--|-4---7-----|---7---4--|-0------7-|---2p0--*|
|-----4----|-----------|----------|---4--0---|--------*|
|----------|-----------|----------|--------3p|========*|


Tablature Legend
----------------
 h   - hammer-on
 p   - pull-off
 b   - bend
 pb  - pre-bend
 r   - bend release (if no number after the r, then release immediately)
 /  - slide into or out of (from/to "nowhere")
 s   - legato slide
 S   - shift slide
  - natural harmonic
[n]  - artificial harmonic
n(n) - tapped harmonic
 ~   - vibrato
 tr  - trill
 T   - tap
 TP  - trem. picking
 PM  - palm muting

/ - tremolo bar dip; n = amount to dip
- tremolo bar down n/ - tremolo bar up /n - tremolo bar inverted dip = - hold bend; also acts as connecting device for hammers/pulls - volume swell (louder/softer) x - on rhythm slash represents muted slash o - on rhythm slash represents single note slash
Get this song at amazon.com      Ebay     Ringtones Ringtones  


Learn to play: Songwriting, Piano, Harmonica, Guitar
More Chet Atkins lyrics available at Muzikum

Related Chet Atkins Tabs

Freight Train tabs
Ave Maria tabs
Unknown tabs
Read My Licks tabs
Take Five tabs
Yankee Doodle Dixie tabs
I'll Say She Does tabs
Wilwood Flower - Fingerstyle tabs
Foggy Mountain Breakdown tabs
Mr. Sandman(harp) tabs
Amazing Grace tabs
Mr Bojangles tabs
Imagine - Fingerstyle tabs
I Still Can't Say Good Bye intro tabs
Half Moon tabs
City Of New Orleans tabs
The Poor People Of Paris tabs
Waltz For The Lonely tabs
Classical Gas tabs
Dizzy Fingers tabs


Guitar Tabs









All tabs are property and copyright of their owners. All tabs provided for educational purposes only. Privacy Policy, DMCA