Chet Atkins

Struttin Tabs



More from Chet Atkins

Chet Atkins Tabs
Chet Atkins Chords
Chet Atkins Lyrics

Struttin
Chet Atkins


                                                              



                                                                          
E||------------7----------|----5--7----5----7----|------------7----------|
B||--6----7----7----6--7--|----6--7----6----7----|--6----7----7----6--7--|
G||--4----7----7----4--7--|----4--7----4----7----|--4----7----7----4--7--|
D||--4----7---------4--7--|----------------------|--4----7---------4--7--|
A||-----------------------|----------------------|-----------------------|
D||-----------------------|----------------------|-----------------------|


                                                                       
----5--7----5---------|------------7----------|-----5--7----5---------|
----6--7----6---------|--6----7----7----6--7--|-----6--7----6----0----|
----4--7----4---------|--4----7----7----4--7--|-----4--7----4----2----|
----------------------|--4----7---------4--7--|--------4---------4----|
-----------------0----|------------0----------|-------------0---------|
----------------------|--0--------------------|--0--------------------|


                                                                        
----------------------|--7----5-------0-------|------------------------|
-------3----6----7----|--7----6----6----------|--3-----3----5----3-----|
-------4----4----7----|--7----4----5----------|--3h-4--4----5----3h-4--|
-------4---------4----|-------4---------------|--------3---------3-----|
------------0---------|-----------------------|------------------------|
--0-------------------|--0---------0-----4----|--5----------0----------|


                                                                     
----------------------|----------------------|----------------------|
-------0--------------|--0----3----0----7----|----------------------|
-------0--------------|--2----2----2----7----|----------------------|
-------0--------------|-------4---------7----|----------------------|
----------------------|------------0---------|-------0----2----4----|
--5---------3----2----|--0-------------------|--0-------------------|


                                                                         
------------7----------|-----5--7----5----10----|-----7-----------------|
--6----7----7----6--7--|-----6--7----6----10----|-----7-------6----7----|
--4----7----7----4--7--|-----4--7----4----11----|-----7-------4----7----|
--4----7---------4--7--|--------4---------0-----|--------0----4----4----|
------------0----------|-------------0----------|-------------0---------|
--0--------------------|--0---------------------|--0--------------------|


                                                                          
--7----5----0----------|------------2-----------|-------0----------------|
--7----6-------0-------|--3----0-------3-----0--|------------3--0--------|
--7----4-------0-------|--1----1-------1-----1--|------------1--1--------|
-------4---------------|-------0----------0-----|-------0----------0-----|
-----------------------|------------2-----------|------------2--------0--|
--0---------0-----1----|--2---------------------|--2---------------------|


                                                                       
------------3----7----|-----9h-7----5-------5h-|--3----2---------0----|
--0----3----3----8----|-----8-------5-------3--|-------2---------2----|
--0----4----4----7----|-----7-------6-------4--|-------2---------0----|
--0----5--------------|------------------------|----------------------|
-----------------0----|--0-----0----0----0-----|--0----0----0----0----|
----------------------|------------------------|----------------------|


                                                                       
----------------------|------------7----------|-----5--7----5---------|
----------------------|--6----7----7----6--7--|-----6--7----6----0----|
----------------------|--4----7----7----4--7--|-----4--7----4----2----|
----------------------|--4----7---------4--7--|--------4---------4----|
--0----0----2----4----|------------0----------|-------------0---------|
----------------------|--0--------------------|--0--------------------|


                                                                        
----------------------|--7----5-------0-------|------------------------|
-------3----6----7----|--7----6----6----------|--3-----3----5----3-----|
-------4----4----7----|--7----4----5----------|--3h-4--4----5----3h-4--|
-------4---------4----|-------4----------4----|--------3---------3-----|
------------0---------|-----------------------|------------------------|
--0-------------------|--0---------0----------|--5----------0----------|


                                                                       
----------------------|----------------------|------------------------|
-------0--------------|--0----3----0----7----|----------0-----3-------|
-------0--------------|--2----2----2----7----|-------2----------------|
-------0--------------|-------4---------7----|-------4----------------|
----------------------|------------0---------|-------------0----------|
--5---------3----2----|--0-------------------|--0----------------1----|


                                                                           
--2--------------2----|-----------2-----------2--|---------------2-----3--|
--3----0----3---------|--0--3-----------3-----3--|-------0----3-----------|
--1----1----1---------|--1--1-----------1-----0--|-------0----0-----------|
-------0---------0----|--------0-----------0-----|-------0----------0-----|
------------2---------|--------------2-----------|------------2-----------|
--2-------------------|--2-----------------------|--2---------------------|


                                                                      
-----------------------|----------------------|----------------------|
--------3----0---------|----------------------|----------------------|
--------4----0---------|-------0----1----2----|--4----6----7----9----|
-----5-------0------4--|----------------------|--0---------0---------|
--0--------------------|----------------------|----------------------|
-----------------------|--0----2----3----4----|--5---------8---------|


                                                                         
--------------------10~---|---------------------|-----------------------|
--------------10----10~---|---------------------|--3-----3----5----3----|
--11----12----------11~---|---------------------|--3h-4--4----5----4----|
--0-----------------------|---------------------|--------3---------3----|
--------------------------|---------------------|-----------------------|
--12----------------0~----|------0----2----4----|--5----------0---------|


                                                                       
-----------------------|----------------------|-----------------------|
-----0-------5----3----|--6----5----3----3----|-----0-----------------|
-----0-------3----4----|--7----5----3----4----|-----0-----------------|
--------0---------3----|-------5---------3----|--------0--------------|
-----------------------|----------------------|-----------------------|
--5----------0---------|--5---------0---------|--5----------3----2----|


                                                                     
----------------------|----------------------|----------------------|
-------0---------0h---|--3----0---------0h---|--3----0----3----5----|
--2----2----2----1/---|--2---------2----1/---|--2--------------5----|
-------4---------3/---|--4----4---------3/---|--4----4---------4----|
------------0---------|------------0---------|------------0---------|
--0-------------------|--0-------------------|--0-------------------|


                                                                          
-----2-------------------
Get this song at amazon.com      Ebay     Ringtones Ringtones  


Learn to play: Songwriting, Piano, Harmonica, Guitar
More Chet Atkins lyrics available at Muzikum

Related Chet Atkins Tabs

Read My Licks tabs
Take Five tabs
Mr Bojangles tabs
Half Moon tabs
Entertainer tabs
Unknown tabs
Sugar Bush tabs
I Still Can't Say Good Bye intro tabs
I Still Cant Say Goodbye tabs
In The Mood - Fingerstyle tabs
Freight Train tabs
My Funny Valentine tabs
The Poor People Of Paris tabs
Yakety Axe tabs
Manha De Carnaval tabs
Imagine - Fingerstyle tabs
I'll Say She Does tabs
Wilwood Flower - Fingerstyle tabs
Mr Sandman tabs
Vincent tabs


Guitar Tabs









All tabs are property and copyright of their owners. All tabs provided for educational purposes only. Privacy Policy, DMCA